ISO-10303-21;
HEADER;
FILE_DESCRIPTION (( 'STEP AP203' ),
    '1' );
FILE_NAME ('250630 STEP 1-400392-01_3064.STEP',
    '2025-06-30T10:29:22',
    ( '' ),
    ( '' ),
    'SwSTEP 2.0',
    'SolidWorks 2024',
    '' );
FILE_SCHEMA (( 'CONFIG_CONTROL_DESIGN' ));
ENDSEC;

DATA;
#1 = CARTESIAN_POINT ( 'NONE',  ( 2.500000000000000444, 0.000000000000000000, 0.000000000000000000 ) ) ;
#2 = COORDINATED_UNIVERSAL_TIME_OFFSET ( 2, 0, .AHEAD. ) ;
#3 = APPROVAL_PERSON_ORGANIZATION ( #135, #271, #244 ) ;
#4 = EDGE_LOOP ( 'NONE', ( #243 ) ) ;
#5 = DIRECTION ( 'NONE',  ( -1.000000000000000000, 0.000000000000000000, -0.000000000000000000 ) ) ;
#6 = AXIS2_PLACEMENT_3D ( 'NONE', #75, #9, #36 ) ;
#7 = ORIENTED_EDGE ( 'NONE', *, *, #51, .T. ) ;
#8 = EDGE_CURVE ( 'NONE', #278, #278, #208, .T. ) ;
#9 = DIRECTION ( 'NONE',  ( -1.000000000000000000, -0.000000000000000000, -0.000000000000000000 ) ) ;
#10 = CARTESIAN_POINT ( 'NONE',  ( -2.500000000000000444, 0.000000000000000000, 23.50000000000000000 ) ) ;
#11 = ORIENTED_EDGE ( 'NONE', *, *, #253, .F. ) ;
#12 = EDGE_LOOP ( 'NONE', ( #238 ) ) ;
#13 = CARTESIAN_POINT ( 'NONE',  ( -5.500000000000000000, 0.000000000000000000, 0.000000000000000000 ) ) ;
#14 = AXIS2_PLACEMENT_3D ( 'NONE', #202, #178, #220 ) ;
#15 = CARTESIAN_POINT ( 'NONE',  ( -5.500000000000001776, 0.000000000000000000, 0.000000000000000000 ) ) ;
#16 = CARTESIAN_POINT ( 'NONE',  ( -15.21171980905863919, 0.000000000000000000, 0.000000000000000000 ) ) ;
#17 = DESIGN_CONTEXT ( 'detailed design', #52, 'design' ) ;
#18 = DATE_TIME_ROLE ( 'creation_date' ) ;
#19 = DIRECTION ( 'NONE',  ( -1.000000000000000000, -0.000000000000000000, -0.000000000000000000 ) ) ;
#20 = CALENDAR_DATE ( 2025, 30, 6 ) ;
#21 = ADVANCED_FACE ( 'NONE', ( #126, #129 ), #134, .F. ) ;
#22 = AXIS2_PLACEMENT_3D ( 'NONE', #13, #190, #168 ) ;
#23 = CC_DESIGN_SECURITY_CLASSIFICATION ( #62, ( #73 ) ) ;
#24 = CARTESIAN_POINT ( 'NONE',  ( -2.000000000000000000, 0.000000000000000000, 0.000000000000000000 ) ) ;
#25 = SHAPE_DEFINITION_REPRESENTATION ( #262, #128 ) ;
#26 = DIRECTION ( 'NONE',  ( 0.000000000000000000, 0.000000000000000000, 1.000000000000000000 ) ) ;
#27 = PERSON_AND_ORGANIZATION ( #194, #133 ) ;
#28 = EDGE_LOOP ( 'NONE', ( #232 ) ) ;
#29 = PERSON_AND_ORGANIZATION ( #194, #133 ) ;
#30 = CC_DESIGN_APPROVAL ( #256, ( #73 ) ) ;
#31 = FACE_OUTER_BOUND ( 'NONE', #120, .T. ) ;
#32 = CIRCLE ( 'NONE', #169, 22.25000000000000000 ) ;
#33 = CC_DESIGN_PERSON_AND_ORGANIZATION_ASSIGNMENT ( #127, #177, ( #153 ) ) ;
#34 = DIRECTION ( 'NONE',  ( 0.000000000000000000, 0.000000000000000000, 1.000000000000000000 ) ) ;
#35 = CARTESIAN_POINT ( 'NONE',  ( 2.500000000000000444, 0.000000000000000000, -23.50000000000000000 ) ) ;
#36 = DIRECTION ( 'NONE',  ( 0.000000000000000000, 0.000000000000000000, 1.000000000000000000 ) ) ;
#37 = ORIENTED_EDGE ( 'NONE', *, *, #118, .T. ) ;
#38 = DIRECTION ( 'NONE',  ( -1.000000000000000000, -0.000000000000000000, -0.000000000000000000 ) ) ;
#39 = CC_DESIGN_APPROVAL ( #271, ( #115 ) ) ;
#40 = EDGE_LOOP ( 'NONE', ( #111 ) ) ;
#41 = DATE_AND_TIME ( #47, #204 ) ;
#42 = ADVANCED_FACE ( 'NONE', ( #193, #107 ), #266, .T. ) ;
#43 = FACE_BOUND ( 'NONE', #122, .T. ) ;
#44 = ORIENTED_EDGE ( 'NONE', *, *, #236, .F. ) ;
#45 = EDGE_LOOP ( 'NONE', ( #44 ) ) ;
#46 = CYLINDRICAL_SURFACE ( 'NONE', #272, 23.50000000000000000 ) ;
#47 = CALENDAR_DATE ( 2025, 30, 6 ) ;
#48 = PLANE ( 'NONE',  #76 ) ;
#49 = AXIS2_PLACEMENT_3D ( 'NONE', #1, #176, #87 ) ;
#50 = LOCAL_TIME ( 13, 29, 22.00000000000000000, #264 ) ;
#51 = EDGE_CURVE ( 'NONE', #101, #101, #32, .T. ) ;
#52 = APPLICATION_CONTEXT ( 'configuration controlled 3d designs of mechanical parts and assemblies' ) ;
#53 = CIRCLE ( 'NONE', #268, 22.25000000000000000 ) ;
#54 = DIRECTION ( 'NONE',  ( 0.000000000000000000, 0.000000000000000000, 1.000000000000000000 ) ) ;
#55 = EDGE_LOOP ( 'NONE', ( #212 ) ) ;
#56 = FACE_OUTER_BOUND ( 'NONE', #12, .T. ) ;
#57 = VERTEX_POINT ( 'NONE', #10 ) ;
#58 = EDGE_LOOP ( 'NONE', ( #69 ) ) ;
#59 = CARTESIAN_POINT ( 'NONE',  ( 5.500000000000000000, 0.000000000000000000, 0.000000000000000000 ) ) ;
#60 = FACE_OUTER_BOUND ( 'NONE', #145, .T. ) ;
#61 = PERSON_AND_ORGANIZATION_ROLE ( 'design_supplier' ) ;
#62 = SECURITY_CLASSIFICATION ( '', '', #112 ) ;
#63 = CC_DESIGN_PERSON_AND_ORGANIZATION_ASSIGNMENT ( #27, #130, ( #115 ) ) ;
#64 = DIRECTION ( 'NONE',  ( 0.000000000000000000, 0.000000000000000000, -1.000000000000000000 ) ) ;
#65 = ORIENTED_EDGE ( 'NONE', *, *, #287, .T. ) ;
#66 = UNCERTAINTY_MEASURE_WITH_UNIT (LENGTH_MEASURE( 1.000000000000000082E-05 ), #276, 'distance_accuracy_value', 'NONE');
#67 = DIRECTION ( 'NONE',  ( 0.000000000000000000, 0.000000000000000000, 1.000000000000000000 ) ) ;
#68 = APPROVAL_ROLE ( '' ) ;
#69 = ORIENTED_EDGE ( 'NONE', *, *, #51, .F. ) ;
#70 = COORDINATED_UNIVERSAL_TIME_OFFSET ( 2, 0, .AHEAD. ) ;
#71 = FACE_OUTER_BOUND ( 'NONE', #179, .T. ) ;
#72 = ADVANCED_FACE ( 'NONE', ( #222, #245 ), #46, .T. ) ;
#73 = PRODUCT_DEFINITION_FORMATION_WITH_SPECIFIED_SOURCE ( 'ANY', '', #153, .NOT_KNOWN. ) ;
#74 = CARTESIAN_POINT ( 'NONE',  ( 5.500000000000000000, 0.000000000000000000, 17.50000000000000000 ) ) ;
#75 = CARTESIAN_POINT ( 'NONE',  ( -2.500000000000000444, 0.000000000000000000, 0.000000000000000000 ) ) ;
#76 = AXIS2_PLACEMENT_3D ( 'NONE', #138, #161, #228 ) ;
#77 = DIRECTION ( 'NONE',  ( -1.000000000000000000, -0.000000000000000000, -0.000000000000000000 ) ) ;
#78 = VERTEX_POINT ( 'NONE', #234 ) ;
#79 = ORIENTED_EDGE ( 'NONE', *, *, #132, .T. ) ;
#80 = CALENDAR_DATE ( 2025, 30, 6 ) ;
#81 = PLANE ( 'NONE',  #182 ) ;
#82 = PERSON_AND_ORGANIZATION ( #194, #133 ) ;
#83 = CARTESIAN_POINT ( 'NONE',  ( -2.000000000000000000, 0.000000000000000000, 0.000000000000000000 ) ) ;
#84 = DIRECTION ( 'NONE',  ( 0.000000000000000000, 0.000000000000000000, 1.000000000000000000 ) ) ;
#85 = ORIENTED_EDGE ( 'NONE', *, *, #8, .T. ) ;
#86 = PERSON_AND_ORGANIZATION ( #194, #133 ) ;
#87 = DIRECTION ( 'NONE',  ( 0.000000000000000000, 0.000000000000000000, -1.000000000000000000 ) ) ;
#88 = DATE_AND_TIME ( #20, #113 ) ;
#89 = AXIS2_PLACEMENT_3D ( 'NONE', #239, #170, #125 ) ;
#90 = CIRCLE ( 'NONE', #6, 23.50000000000000000 ) ;
#91 = FACE_OUTER_BOUND ( 'NONE', #28, .T. ) ;
#92 = EDGE_CURVE ( 'NONE', #78, #78, #189, .T. ) ;
#93 = CC_DESIGN_PERSON_AND_ORGANIZATION_ASSIGNMENT ( #29, #61, ( #73 ) ) ;
#94 = LOCAL_TIME ( 13, 29, 22.00000000000000000, #70 ) ;
#95 = CARTESIAN_POINT ( 'NONE',  ( 2.000000000000000000, 0.000000000000000000, 22.25000000000000000 ) ) ;
#96 = CARTESIAN_POINT ( 'NONE',  ( -5.500000000000000000, 0.000000000000000000, 17.50000000000000000 ) ) ;
#97 = ADVANCED_FACE ( 'NONE', ( #91, #227 ), #247, .F. ) ;
#98 = ORIENTED_EDGE ( 'NONE', *, *, #118, .F. ) ;
#99 = CIRCLE ( 'NONE', #235, 23.00000000000000000 ) ;
#100 = VERTEX_POINT ( 'NONE', #74 ) ;
#101 = VERTEX_POINT ( 'NONE', #277 ) ;
#102 = CARTESIAN_POINT ( 'NONE',  ( 5.500000000000003553, 0.000000000000000000, 0.000000000000000000 ) ) ;
#103 = PERSON_AND_ORGANIZATION_ROLE ( 'classification_officer' ) ;
#104 = DIRECTION ( 'NONE',  ( 0.000000000000000000, 0.000000000000000000, 1.000000000000000000 ) ) ;
#105 = CALENDAR_DATE ( 2025, 30, 6 ) ;
#106 = TOROIDAL_SURFACE ( 'NONE', #89, 23.00000000000000000, 0.5000000000000000000 ) ;
#107 = FACE_OUTER_BOUND ( 'NONE', #40, .T. ) ;
#108 = DIRECTION ( 'NONE',  ( 0.000000000000000000, 0.000000000000000000, 1.000000000000000000 ) ) ;
#109 = APPROVAL_DATE_TIME ( #160, #271 ) ;
#110 = CC_DESIGN_DATE_AND_TIME_ASSIGNMENT ( #156, #282, ( #62 ) ) ;
#111 = ORIENTED_EDGE ( 'NONE', *, *, #236, .T. ) ;
#112 = SECURITY_CLASSIFICATION_LEVEL ( 'unclassified' ) ;
#113 = LOCAL_TIME ( 13, 29, 22.00000000000000000, #251 ) ;
#114 = PLANE ( 'NONE',  #254 ) ;
#115 = PRODUCT_DEFINITION ( 'UNKNOWN', '', #73, #17 ) ;
#116 = DIRECTION ( 'NONE',  ( 0.000000000000000000, 0.000000000000000000, 1.000000000000000000 ) ) ;
#117 = AXIS2_PLACEMENT_3D ( 'NONE', #164, #241, #192 ) ;
#118 = EDGE_CURVE ( 'NONE', #211, #211, #210, .T. ) ;
#119 = DIRECTION ( 'NONE',  ( -1.000000000000000000, -0.000000000000000000, -0.000000000000000000 ) ) ;
#120 = EDGE_LOOP ( 'NONE', ( #166 ) ) ;
#121 = CARTESIAN_POINT ( 'NONE',  ( 2.000000000000000000, 0.000000000000000000, 0.000000000000000000 ) ) ;
#122 = EDGE_LOOP ( 'NONE', ( #265 ) ) ;
#123 = APPLICATION_CONTEXT ( 'configuration controlled 3d designs of mechanical parts and assemblies' ) ;
#124 = APPROVAL ( #198, 'UNSPECIFIED' ) ;
#125 = DIRECTION ( 'NONE',  ( 0.000000000000000000, 0.000000000000000000, 1.000000000000000000 ) ) ;
#126 = FACE_OUTER_BOUND ( 'NONE', #142, .T. ) ;
#127 = PERSON_AND_ORGANIZATION ( #194, #133 ) ;
#128 = ADVANCED_BREP_SHAPE_REPRESENTATION ( '250630 STEP 1-400392-01_3064', ( #207, #150 ), #184 ) ;
#129 = FACE_BOUND ( 'NONE', #288, .T. ) ;
#130 = PERSON_AND_ORGANIZATION_ROLE ( 'creator' ) ;
#131 = DIRECTION ( 'NONE',  ( -1.000000000000000000, -0.000000000000000000, -0.000000000000000000 ) ) ;
#132 = EDGE_CURVE ( 'NONE', #143, #143, #99, .T. ) ;
#133 = ORGANIZATION ( 'UNSPECIFIED', 'UNSPECIFIED', '' ) ;
#134 = PLANE ( 'NONE',  #14 ) ;
#135 = PERSON_AND_ORGANIZATION ( #194, #133 ) ;
#136 = DIRECTION ( 'NONE',  ( -1.000000000000000000, -0.000000000000000000, -0.000000000000000000 ) ) ;
#137 = APPLICATION_PROTOCOL_DEFINITION ( 'international standard', 'config_control_design', 1994, #123 ) ;
#138 = CARTESIAN_POINT ( 'NONE',  ( -5.500000000000000888, 23.50000000000000000, 0.000000000000000000 ) ) ;
#139 = AXIS2_PLACEMENT_3D ( 'NONE', #102, #136, #104 ) ;
#140 = AXIS2_PLACEMENT_3D ( 'NONE', #257, #38, #34 ) ;
#141 = PRODUCT_RELATED_PRODUCT_CATEGORY ( 'detail', '', ( #153 ) ) ;
#142 = EDGE_LOOP ( 'NONE', ( #79 ) ) ;
#143 = VERTEX_POINT ( 'NONE', #233 ) ;
#144 = ADVANCED_FACE ( 'NONE', ( #60, #199 ), #81, .F. ) ;
#145 = EDGE_LOOP ( 'NONE', ( #37 ) ) ;
#146 = TOROIDAL_SURFACE ( 'NONE', #117, 23.00000000000000000, 0.5000000000000000000 ) ;
#147 = EDGE_LOOP ( 'NONE', ( #85 ) ) ;
#148 = CARTESIAN_POINT ( 'NONE',  ( 2.000000000000000000, 0.000000000000000000, -23.00000000000000000 ) ) ;
#149 = ORIENTED_EDGE ( 'NONE', *, *, #8, .F. ) ;
#150 = AXIS2_PLACEMENT_3D ( 'NONE', #221, #84, #171 ) ;
#151 = FACE_OUTER_BOUND ( 'NONE', #4, .T. ) ;
#152 = CALENDAR_DATE ( 2025, 30, 6 ) ;
#153 = PRODUCT ( '250630 STEP 1-400392-01_3064', '250630 STEP 1-400392-01_3064', '', ( #261 ) ) ;
#154 = ADVANCED_FACE ( 'NONE', ( #151, #43 ), #114, .F. ) ;
#155 = DIRECTION ( 'NONE',  ( 0.000000000000000000, 0.000000000000000000, 1.000000000000000000 ) ) ;
#156 = DATE_AND_TIME ( #105, #94 ) ;
#157 = CARTESIAN_POINT ( 'NONE',  ( 2.000000000000000000, 0.000000000000000000, 0.000000000000000000 ) ) ;
#158 = APPROVAL_STATUS ( 'not_yet_approved' ) ;
#159 = DIRECTION ( 'NONE',  ( -1.000000000000000000, -0.000000000000000000, -0.000000000000000000 ) ) ;
#160 = DATE_AND_TIME ( #80, #163 ) ;
#161 = DIRECTION ( 'NONE',  ( 1.000000000000000000, 0.000000000000000000, 0.000000000000000000 ) ) ;
#162 = AXIS2_PLACEMENT_3D ( 'NONE', #267, #159, #67 ) ;
#163 = LOCAL_TIME ( 13, 29, 22.00000000000000000, #226 ) ;
#164 = CARTESIAN_POINT ( 'NONE',  ( 2.500000000000000444, 0.000000000000000000, 0.000000000000000000 ) ) ;
#165 = ADVANCED_FACE ( 'NONE', ( #270, #71 ), #48, .F. ) ;
#166 = ORIENTED_EDGE ( 'NONE', *, *, #185, .T. ) ;
#167 = VERTEX_POINT ( 'NONE', #96 ) ;
#168 = DIRECTION ( 'NONE',  ( 0.000000000000000000, 0.000000000000000000, 1.000000000000000000 ) ) ;
#169 = AXIS2_PLACEMENT_3D ( 'NONE', #83, #196, #26 ) ;
#170 = DIRECTION ( 'NONE',  ( -1.000000000000000000, -0.000000000000000000, -0.000000000000000000 ) ) ;
#171 = DIRECTION ( 'NONE',  ( 1.000000000000000000, 0.000000000000000000, 0.000000000000000000 ) ) ;
#172 = CARTESIAN_POINT ( 'NONE',  ( 2.000000000000000000, 23.50000000000000000, 0.000000000000000000 ) ) ;
#173 = AXIS2_PLACEMENT_3D ( 'NONE', #281, #225, #108 ) ;
#174 = APPROVAL_ROLE ( '' ) ;
#175 = ADVANCED_FACE ( 'NONE', ( #31, #205 ), #219, .T. ) ;
#176 = DIRECTION ( 'NONE',  ( 1.000000000000000000, 0.000000000000000000, 0.000000000000000000 ) ) ;
#177 = PERSON_AND_ORGANIZATION_ROLE ( 'design_owner' ) ;
#178 = DIRECTION ( 'NONE',  ( -1.000000000000000000, 0.000000000000000000, -0.000000000000000000 ) ) ;
#179 = EDGE_LOOP ( 'NONE', ( #240 ) ) ;
#180 = CC_DESIGN_PERSON_AND_ORGANIZATION_ASSIGNMENT ( #181, #269, ( #73 ) ) ;
#181 = PERSON_AND_ORGANIZATION ( #194, #133 ) ;
#182 = AXIS2_PLACEMENT_3D ( 'NONE', #172, #263, #64 ) ;
#183 = CARTESIAN_POINT ( 'NONE',  ( 5.500000000000000888, 17.50000000000000000, 0.000000000000000000 ) ) ;
#184 =( GEOMETRIC_REPRESENTATION_CONTEXT ( 3 ) GLOBAL_UNCERTAINTY_ASSIGNED_CONTEXT ( ( #66 ) ) GLOBAL_UNIT_ASSIGNED_CONTEXT ( ( #276, #237, #188 ) ) REPRESENTATION_CONTEXT ( 'NONE', 'WORKASPACE' ) );
#185 = EDGE_CURVE ( 'NONE', #57, #57, #90, .T. ) ;
#186 = VERTEX_POINT ( 'NONE', #274 ) ;
#187 = CC_DESIGN_DATE_AND_TIME_ASSIGNMENT ( #41, #18, ( #115 ) ) ;
#188 =( NAMED_UNIT ( * ) SI_UNIT ( $, .STERADIAN. ) SOLID_ANGLE_UNIT ( ) );
#189 = CIRCLE ( 'NONE', #139, 23.50000000000000000 ) ;
#190 = DIRECTION ( 'NONE',  ( -1.000000000000000000, -0.000000000000000000, -0.000000000000000000 ) ) ;
#191 = EDGE_LOOP ( 'NONE', ( #273 ) ) ;
#192 = DIRECTION ( 'NONE',  ( 0.000000000000000000, 0.000000000000000000, -1.000000000000000000 ) ) ;
#193 = FACE_OUTER_BOUND ( 'NONE', #58, .T. ) ;
#194 = PERSON ( 'UNSPECIFIED', 'UNSPECIFIED', 'UNSPECIFIED', ('UNSPECIFIED'), ('UNSPECIFIED'), ('UNSPECIFIED') ) ;
#195 = ADVANCED_FACE ( 'NONE', ( #259, #215 ), #146, .T. ) ;
#196 = DIRECTION ( 'NONE',  ( -1.000000000000000000, -0.000000000000000000, -0.000000000000000000 ) ) ;
#197 = CLOSED_SHELL ( 'NONE', ( #165, #97, #154, #72, #144, #42, #21, #175, #195, #275 ) ) ;
#198 = APPROVAL_STATUS ( 'not_yet_approved' ) ;
#199 = FACE_BOUND ( 'NONE', #45, .T. ) ;
#200 = DIRECTION ( 'NONE',  ( 0.000000000000000000, 0.000000000000000000, 1.000000000000000000 ) ) ;
#201 = APPROVAL_STATUS ( 'not_yet_approved' ) ;
#202 = CARTESIAN_POINT ( 'NONE',  ( -2.000000000000000000, 22.25000000000000000, 0.000000000000000000 ) ) ;
#203 = APPLICATION_PROTOCOL_DEFINITION ( 'international standard', 'config_control_design', 1994, #52 ) ;
#204 = LOCAL_TIME ( 13, 29, 22.00000000000000000, #2 ) ;
#205 = FACE_OUTER_BOUND ( 'NONE', #248, .T. ) ;
#206 = CC_DESIGN_PERSON_AND_ORGANIZATION_ASSIGNMENT ( #86, #103, ( #62 ) ) ;
#207 = MANIFOLD_SOLID_BREP ( 'Fillet1', #197 ) ;
#208 = CIRCLE ( 'NONE', #49, 23.50000000000000000 ) ;
#209 = DIRECTION ( 'NONE',  ( -1.000000000000000000, -0.000000000000000000, -0.000000000000000000 ) ) ;
#210 = CIRCLE ( 'NONE', #231, 23.00000000000000000 ) ;
#211 = VERTEX_POINT ( 'NONE', #148 ) ;
#212 = ORIENTED_EDGE ( 'NONE', *, *, #287, .F. ) ;
#213 = VERTEX_POINT ( 'NONE', #95 ) ;
#214 = EDGE_LOOP ( 'NONE', ( #218 ) ) ;
#215 = FACE_OUTER_BOUND ( 'NONE', #279, .T. ) ;
#216 = AXIS2_PLACEMENT_3D ( 'NONE', #59, #209, #280 ) ;
#217 = AXIS2_PLACEMENT_3D ( 'NONE', #15, #77, #54 ) ;
#218 = ORIENTED_EDGE ( 'NONE', *, *, #132, .F. ) ;
#219 = CYLINDRICAL_SURFACE ( 'NONE', #140, 23.50000000000000000 ) ;
#220 = DIRECTION ( 'NONE',  ( -0.000000000000000000, 0.000000000000000000, 1.000000000000000000 ) ) ;
#221 = CARTESIAN_POINT ( 'NONE',  ( 0.000000000000000000, 0.000000000000000000, 0.000000000000000000 ) ) ;
#222 = FACE_OUTER_BOUND ( 'NONE', #147, .T. ) ;
#223 = PERSON_AND_ORGANIZATION ( #194, #133 ) ;
#224 = DIRECTION ( 'NONE',  ( 0.000000000000000000, 0.000000000000000000, -1.000000000000000000 ) ) ;
#225 = DIRECTION ( 'NONE',  ( -1.000000000000000000, -0.000000000000000000, -0.000000000000000000 ) ) ;
#226 = COORDINATED_UNIVERSAL_TIME_OFFSET ( 2, 0, .AHEAD. ) ;
#227 = FACE_OUTER_BOUND ( 'NONE', #250, .T. ) ;
#228 = DIRECTION ( 'NONE',  ( 0.000000000000000000, 0.000000000000000000, -1.000000000000000000 ) ) ;
#229 = CIRCLE ( 'NONE', #22, 17.50000000000000000 ) ;
#230 = APPROVAL_PERSON_ORGANIZATION ( #82, #124, #174 ) ;
#231 = AXIS2_PLACEMENT_3D ( 'NONE', #157, #131, #224 ) ;
#232 = ORIENTED_EDGE ( 'NONE', *, *, #258, .F. ) ;
#233 = CARTESIAN_POINT ( 'NONE',  ( -2.000000000000000000, 0.000000000000000000, 23.00000000000000000 ) ) ;
#234 = CARTESIAN_POINT ( 'NONE',  ( 5.500000000000003553, 0.000000000000000000, 23.50000000000000000 ) ) ;
#235 = AXIS2_PLACEMENT_3D ( 'NONE', #24, #260, #200 ) ;
#236 = EDGE_CURVE ( 'NONE', #213, #213, #53, .T. ) ;
#237 =( NAMED_UNIT ( * ) PLANE_ANGLE_UNIT ( ) SI_UNIT ( $, .RADIAN. ) );
#238 = ORIENTED_EDGE ( 'NONE', *, *, #185, .F. ) ;
#239 = CARTESIAN_POINT ( 'NONE',  ( -2.500000000000000444, 0.000000000000000000, 0.000000000000000000 ) ) ;
#240 = ORIENTED_EDGE ( 'NONE', *, *, #253, .T. ) ;
#241 = DIRECTION ( 'NONE',  ( 1.000000000000000000, 0.000000000000000000, 0.000000000000000000 ) ) ;
#242 = APPROVAL_PERSON_ORGANIZATION ( #223, #256, #68 ) ;
#243 = ORIENTED_EDGE ( 'NONE', *, *, #92, .F. ) ;
#244 = APPROVAL_ROLE ( '' ) ;
#245 = FACE_OUTER_BOUND ( 'NONE', #191, .T. ) ;
#246 = DATE_AND_TIME ( #152, #50 ) ;
#247 = CYLINDRICAL_SURFACE ( 'NONE', #173, 17.50000000000000000 ) ;
#248 = EDGE_LOOP ( 'NONE', ( #11 ) ) ;
#249 = CIRCLE ( 'NONE', #217, 23.50000000000000000 ) ;
#250 = EDGE_LOOP ( 'NONE', ( #65 ) ) ;
#251 = COORDINATED_UNIVERSAL_TIME_OFFSET ( 2, 0, .AHEAD. ) ;
#252 = DIRECTION ( 'NONE',  ( -0.000000000000000000, 0.000000000000000000, 1.000000000000000000 ) ) ;
#253 = EDGE_CURVE ( 'NONE', #186, #186, #249, .T. ) ;
#254 = AXIS2_PLACEMENT_3D ( 'NONE', #183, #5, #252 ) ;
#255 = FACE_OUTER_BOUND ( 'NONE', #214, .T. ) ;
#256 = APPROVAL ( #158, 'UNSPECIFIED' ) ;
#257 = CARTESIAN_POINT ( 'NONE',  ( -15.21171980905863919, 0.000000000000000000, 0.000000000000000000 ) ) ;
#258 = EDGE_CURVE ( 'NONE', #100, #100, #283, .T. ) ;
#259 = FACE_OUTER_BOUND ( 'NONE', #285, .T. ) ;
#260 = DIRECTION ( 'NONE',  ( 1.000000000000000000, 0.000000000000000000, 0.000000000000000000 ) ) ;
#261 = MECHANICAL_CONTEXT ( 'NONE', #123, 'mechanical' ) ;
#262 = PRODUCT_DEFINITION_SHAPE ( 'NONE', 'NONE',  #115 ) ;
#263 = DIRECTION ( 'NONE',  ( 1.000000000000000000, 0.000000000000000000, 0.000000000000000000 ) ) ;
#264 = COORDINATED_UNIVERSAL_TIME_OFFSET ( 2, 0, .AHEAD. ) ;
#265 = ORIENTED_EDGE ( 'NONE', *, *, #258, .T. ) ;
#266 = CYLINDRICAL_SURFACE ( 'NONE', #162, 22.25000000000000000 ) ;
#267 = CARTESIAN_POINT ( 'NONE',  ( -15.21171980905863919, 0.000000000000000000, 0.000000000000000000 ) ) ;
#268 = AXIS2_PLACEMENT_3D ( 'NONE', #121, #119, #116 ) ;
#269 = PERSON_AND_ORGANIZATION_ROLE ( 'creator' ) ;
#270 = FACE_BOUND ( 'NONE', #55, .T. ) ;
#271 = APPROVAL ( #201, 'UNSPECIFIED' ) ;
#272 = AXIS2_PLACEMENT_3D ( 'NONE', #16, #19, #155 ) ;
#273 = ORIENTED_EDGE ( 'NONE', *, *, #92, .T. ) ;
#274 = CARTESIAN_POINT ( 'NONE',  ( -5.500000000000001776, 0.000000000000000000, 23.50000000000000000 ) ) ;
#275 = ADVANCED_FACE ( 'NONE', ( #255, #56 ), #106, .T. ) ;
#276 =( LENGTH_UNIT ( ) NAMED_UNIT ( * ) SI_UNIT ( .MILLI., .METRE. ) );
#277 = CARTESIAN_POINT ( 'NONE',  ( -2.000000000000000000, 0.000000000000000000, 22.25000000000000000 ) ) ;
#278 = VERTEX_POINT ( 'NONE', #35 ) ;
#279 = EDGE_LOOP ( 'NONE', ( #98 ) ) ;
#280 = DIRECTION ( 'NONE',  ( 0.000000000000000000, 0.000000000000000000, 1.000000000000000000 ) ) ;
#281 = CARTESIAN_POINT ( 'NONE',  ( -15.21171980905863919, 0.000000000000000000, 0.000000000000000000 ) ) ;
#282 = DATE_TIME_ROLE ( 'classification_date' ) ;
#283 = CIRCLE ( 'NONE', #216, 17.50000000000000000 ) ;
#284 = CC_DESIGN_APPROVAL ( #124, ( #62 ) ) ;
#285 = EDGE_LOOP ( 'NONE', ( #149 ) ) ;
#286 = APPROVAL_DATE_TIME ( #246, #124 ) ;
#287 = EDGE_CURVE ( 'NONE', #167, #167, #229, .T. ) ;
#288 = EDGE_LOOP ( 'NONE', ( #7 ) ) ;
#289 = APPROVAL_DATE_TIME ( #88, #256 ) ;
ENDSEC;
END-ISO-10303-21;
